ISO-10303-21;
HEADER;
/* Generated by software containing ST-Developer
 * from STEP Tools, Inc. (www.steptools.com) 
 */

FILE_DESCRIPTION(
/* description */ (''),
/* implementation_level */ '2;1');

FILE_NAME(
/* name */ '16A-1.5.stp',
/* time_stamp */ '2025-07-16T08:12:00-04:00',
/* author */ ('brad'),
/* organization */ (''),
/* preprocessor_version */ 'ST-DEVELOPER v20',
/* originating_system */ 'Autodesk Inventor 2025',
/* authorisation */ '');

FILE_SCHEMA (('AUTOMOTIVE_DESIGN { 1 0 10303 214 3 1 1 }'));
ENDSEC;

DATA;
#10=MECHANICAL_DESIGN_GEOMETRIC_PRESENTATION_REPRESENTATION('',(#13),#164);
#11=SHAPE_REPRESENTATION_RELATIONSHIP('SRR','None',#175,#12);
#12=ADVANCED_BREP_SHAPE_REPRESENTATION('',(#14),#163);
#13=STYLED_ITEM('',(#184),#14);
#14=MANIFOLD_SOLID_BREP('Solid1',#81);
#15=FACE_BOUND('',#35,.T.);
#16=CYLINDRICAL_SURFACE('',#107,0.924);
#17=CYLINDRICAL_SURFACE('',#111,0.838);
#18=LINE('',#148,#21);
#19=LINE('',#152,#22);
#20=LINE('',#159,#23);
#21=VECTOR('',#124,0.84585);
#22=VECTOR('',#129,0.924);
#23=VECTOR('',#138,0.838);
#24=CONICAL_SURFACE('',#105,0.84585,0.785398163397448);
#25=FACE_OUTER_BOUND('',#31,.T.);
#26=FACE_OUTER_BOUND('',#32,.T.);
#27=FACE_OUTER_BOUND('',#33,.T.);
#28=FACE_OUTER_BOUND('',#34,.T.);
#29=FACE_OUTER_BOUND('',#36,.T.);
#30=FACE_OUTER_BOUND('',#37,.T.);
#31=EDGE_LOOP('',(#56));
#32=EDGE_LOOP('',(#57,#58,#59,#60));
#33=EDGE_LOOP('',(#61,#62,#63,#64));
#34=EDGE_LOOP('',(#65));
#35=EDGE_LOOP('',(#66));
#36=EDGE_LOOP('',(#67,#68,#69,#70));
#37=EDGE_LOOP('',(#71));
#38=CIRCLE('',#104,0.7677);
#39=CIRCLE('',#106,0.924);
#40=CIRCLE('',#108,0.924);
#41=CIRCLE('',#110,0.838);
#42=CIRCLE('',#112,0.838);
#43=VERTEX_POINT('',#143);
#44=VERTEX_POINT('',#146);
#45=VERTEX_POINT('',#150);
#46=VERTEX_POINT('',#154);
#47=VERTEX_POINT('',#157);
#48=EDGE_CURVE('',#43,#43,#38,.T.);
#49=EDGE_CURVE('',#44,#44,#39,.T.);
#50=EDGE_CURVE('',#44,#43,#18,.T.);
#51=EDGE_CURVE('',#45,#45,#40,.T.);
#52=EDGE_CURVE('',#45,#44,#19,.T.);
#53=EDGE_CURVE('',#46,#46,#41,.T.);
#54=EDGE_CURVE('',#47,#47,#42,.T.);
#55=EDGE_CURVE('',#47,#46,#20,.T.);
#56=ORIENTED_EDGE('',*,*,#48,.F.);
#57=ORIENTED_EDGE('',*,*,#49,.F.);
#58=ORIENTED_EDGE('',*,*,#50,.T.);
#59=ORIENTED_EDGE('',*,*,#48,.T.);
#60=ORIENTED_EDGE('',*,*,#50,.F.);
#61=ORIENTED_EDGE('',*,*,#51,.F.);
#62=ORIENTED_EDGE('',*,*,#52,.T.);
#63=ORIENTED_EDGE('',*,*,#49,.T.);
#64=ORIENTED_EDGE('',*,*,#52,.F.);
#65=ORIENTED_EDGE('',*,*,#51,.T.);
#66=ORIENTED_EDGE('',*,*,#53,.F.);
#67=ORIENTED_EDGE('',*,*,#54,.F.);
#68=ORIENTED_EDGE('',*,*,#55,.T.);
#69=ORIENTED_EDGE('',*,*,#53,.T.);
#70=ORIENTED_EDGE('',*,*,#55,.F.);
#71=ORIENTED_EDGE('',*,*,#54,.T.);
#72=PLANE('',#103);
#73=PLANE('',#109);
#74=PLANE('',#113);
#75=ADVANCED_FACE('',(#25),#72,.T.);
#76=ADVANCED_FACE('',(#26),#24,.T.);
#77=ADVANCED_FACE('',(#27),#16,.T.);
#78=ADVANCED_FACE('',(#28,#15),#73,.T.);
#79=ADVANCED_FACE('',(#29),#17,.T.);
#80=ADVANCED_FACE('',(#30),#74,.T.);
#81=CLOSED_SHELL('',(#75,#76,#77,#78,#79,#80));
#82=DERIVED_UNIT_ELEMENT(#84,1.);
#83=DERIVED_UNIT_ELEMENT(#169,-3.);
#84=(
CONVERSION_BASED_UNIT('gram',#86)
MASS_UNIT()
NAMED_UNIT(#166)
);
#85=(
MASS_UNIT()
NAMED_UNIT(*)
SI_UNIT(.KILO.,.GRAM.)
);
#86=MASS_MEASURE_WITH_UNIT(MASS_MEASURE(0.001),#85);
#87=DERIVED_UNIT((#82,#83));
#88=MEASURE_REPRESENTATION_ITEM('density measure',
POSITIVE_RATIO_MEASURE(1.),#87);
#89=PROPERTY_DEFINITION_REPRESENTATION(#94,#91);
#90=PROPERTY_DEFINITION_REPRESENTATION(#95,#92);
#91=REPRESENTATION('material name',(#93),#163);
#92=REPRESENTATION('density',(#88),#163);
#93=DESCRIPTIVE_REPRESENTATION_ITEM('Default','Default');
#94=PROPERTY_DEFINITION('material property','material name',#177);
#95=PROPERTY_DEFINITION('material property','density of part',#177);
#96=DATE_TIME_ROLE('creation_date');
#97=APPLIED_DATE_AND_TIME_ASSIGNMENT(#98,#96,(#177));
#98=DATE_AND_TIME(#99,#100);
#99=CALENDAR_DATE(2009,18,9);
#100=LOCAL_TIME(0,0,0.,#101);
#101=COORDINATED_UNIVERSAL_TIME_OFFSET(0,0,.BEHIND.);
#102=AXIS2_PLACEMENT_3D('',#141,#114,#115);
#103=AXIS2_PLACEMENT_3D('',#142,#116,#117);
#104=AXIS2_PLACEMENT_3D('',#144,#118,#119);
#105=AXIS2_PLACEMENT_3D('',#145,#120,#121);
#106=AXIS2_PLACEMENT_3D('',#147,#122,#123);
#107=AXIS2_PLACEMENT_3D('',#149,#125,#126);
#108=AXIS2_PLACEMENT_3D('',#151,#127,#128);
#109=AXIS2_PLACEMENT_3D('',#153,#130,#131);
#110=AXIS2_PLACEMENT_3D('',#155,#132,#133);
#111=AXIS2_PLACEMENT_3D('',#156,#134,#135);
#112=AXIS2_PLACEMENT_3D('',#158,#136,#137);
#113=AXIS2_PLACEMENT_3D('',#160,#139,#140);
#114=DIRECTION('axis',(0.,0.,1.));
#115=DIRECTION('refdir',(1.,0.,0.));
#116=DIRECTION('center_axis',(-1.,0.,0.));
#117=DIRECTION('ref_axis',(0.,0.,1.));
#118=DIRECTION('center_axis',(1.,0.,0.));
#119=DIRECTION('ref_axis',(0.,1.,0.));
#120=DIRECTION('center_axis',(1.,0.,0.));
#121=DIRECTION('ref_axis',(0.,1.,0.));
#122=DIRECTION('center_axis',(1.,0.,0.));
#123=DIRECTION('ref_axis',(0.,1.,0.));
#124=DIRECTION('',(-0.707106781186548,0.707106781186548,8.65956056235493E-17));
#125=DIRECTION('center_axis',(1.,0.,0.));
#126=DIRECTION('ref_axis',(0.,1.,0.));
#127=DIRECTION('center_axis',(1.,0.,0.));
#128=DIRECTION('ref_axis',(0.,1.,0.));
#129=DIRECTION('',(-1.,0.,0.));
#130=DIRECTION('center_axis',(1.,0.,0.));
#131=DIRECTION('ref_axis',(0.,0.,-1.));
#132=DIRECTION('center_axis',(1.,0.,0.));
#133=DIRECTION('ref_axis',(0.,1.,0.));
#134=DIRECTION('center_axis',(1.,0.,0.));
#135=DIRECTION('ref_axis',(0.,1.,0.));
#136=DIRECTION('center_axis',(1.,0.,0.));
#137=DIRECTION('ref_axis',(0.,1.,0.));
#138=DIRECTION('',(-1.,0.,0.));
#139=DIRECTION('center_axis',(1.,0.,0.));
#140=DIRECTION('ref_axis',(0.,0.,-1.));
#141=CARTESIAN_POINT('',(0.,0.,0.));
#142=CARTESIAN_POINT('Origin',(-6.55643518479423E-17,0.38385,0.));
#143=CARTESIAN_POINT('',(-1.42056095670542E-16,-0.7677,-9.40161347705423E-17));
#144=CARTESIAN_POINT('Origin',(-8.74191357972564E-17,0.,0.));
#145=CARTESIAN_POINT('Origin',(0.0781499999999998,0.,0.));
#146=CARTESIAN_POINT('',(0.1563,-0.924,-1.13157364241215E-16));
#147=CARTESIAN_POINT('Origin',(0.1563,0.,0.));
#148=CARTESIAN_POINT('',(0.0781499999999998,-0.84585,-1.03586749505879E-16));
#149=CARTESIAN_POINT('Origin',(0.25005,0.,0.));
#150=CARTESIAN_POINT('',(0.3438,-0.924,-1.13157364241215E-16));
#151=CARTESIAN_POINT('Origin',(0.3438,0.,0.));
#152=CARTESIAN_POINT('',(0.25005,-0.924,-1.13157364241215E-16));
#153=CARTESIAN_POINT('Origin',(0.3438,0.881,0.));
#154=CARTESIAN_POINT('',(0.3438,-0.838,-1.02625401768548E-16));
#155=CARTESIAN_POINT('Origin',(0.3438,0.,0.));
#156=CARTESIAN_POINT('Origin',(0.4534,0.,0.));
#157=CARTESIAN_POINT('',(0.563,-0.838,-1.02625401768548E-16));
#158=CARTESIAN_POINT('Origin',(0.563,0.,0.));
#159=CARTESIAN_POINT('',(0.4534,-0.838,-1.02625401768548E-16));
#160=CARTESIAN_POINT('Origin',(0.563,0.419,0.));
#161=UNCERTAINTY_MEASURE_WITH_UNIT(LENGTH_MEASURE(0.000393700787401575),
#167,'DISTANCE_ACCURACY_VALUE',
'Maximum model space distance between geometric entities at asserted c
onnectivities');
#162=UNCERTAINTY_MEASURE_WITH_UNIT(LENGTH_MEASURE(0.000393700787401575),
#167,'DISTANCE_ACCURACY_VALUE',
'Maximum model space distance between geometric entities at asserted c
onnectivities');
#163=(
GEOMETRIC_REPRESENTATION_CONTEXT(3)
GLOBAL_UNCERTAINTY_ASSIGNED_CONTEXT((#161))
GLOBAL_UNIT_ASSIGNED_CONTEXT((#167,#171,#172))
REPRESENTATION_CONTEXT('','3D')
);
#164=(
GEOMETRIC_REPRESENTATION_CONTEXT(3)
GLOBAL_UNCERTAINTY_ASSIGNED_CONTEXT((#162))
GLOBAL_UNIT_ASSIGNED_CONTEXT((#167,#171,#172))
REPRESENTATION_CONTEXT('','3D')
);
#165=DIMENSIONAL_EXPONENTS(1.,0.,0.,0.,0.,0.,0.);
#166=DIMENSIONAL_EXPONENTS(0.,1.,0.,0.,0.,0.,0.);
#167=(
CONVERSION_BASED_UNIT('inch',#170)
LENGTH_UNIT()
NAMED_UNIT(#165)
);
#168=(
LENGTH_UNIT()
NAMED_UNIT(*)
SI_UNIT(.MILLI.,.METRE.)
);
#169=(
LENGTH_UNIT()
NAMED_UNIT(*)
SI_UNIT(.CENTI.,.METRE.)
);
#170=LENGTH_MEASURE_WITH_UNIT(LENGTH_MEASURE(25.4),#168);
#171=(
NAMED_UNIT(*)
PLANE_ANGLE_UNIT()
SI_UNIT($,.RADIAN.)
);
#172=(
NAMED_UNIT(*)
SI_UNIT($,.STERADIAN.)
SOLID_ANGLE_UNIT()
);
#173=SHAPE_DEFINITION_REPRESENTATION(#174,#175);
#174=PRODUCT_DEFINITION_SHAPE('',$,#177);
#175=SHAPE_REPRESENTATION('',(#102),#163);
#176=PRODUCT_DEFINITION_CONTEXT('part definition',#181,'design');
#177=PRODUCT_DEFINITION('16A-1.5','16A-1.5',#178,#176);
#178=PRODUCT_DEFINITION_FORMATION('',$,#183);
#179=PRODUCT_RELATED_PRODUCT_CATEGORY('16A-1.5','16A-1.5',(#183));
#180=APPLICATION_PROTOCOL_DEFINITION('international standard',
'automotive_design',2009,#181);
#181=APPLICATION_CONTEXT(
'Core Data for Automotive Mechanical Design Process');
#182=PRODUCT_CONTEXT('part definition',#181,'mechanical');
#183=PRODUCT('16A-1.5','16A-1.5',$,(#182));
#184=PRESENTATION_STYLE_ASSIGNMENT((#185));
#185=SURFACE_STYLE_USAGE(.BOTH.,#188);
#186=SURFACE_STYLE_RENDERING_WITH_PROPERTIES($,#192,(#187));
#187=SURFACE_STYLE_TRANSPARENT(0.);
#188=SURFACE_SIDE_STYLE('',(#189,#186));
#189=SURFACE_STYLE_FILL_AREA(#190);
#190=FILL_AREA_STYLE('',(#191));
#191=FILL_AREA_STYLE_COLOUR('',#192);
#192=COLOUR_RGB('',0.749019607843137,0.749019607843137,0.749019607843137);
ENDSEC;
END-ISO-10303-21;
