ISO-10303-21;
HEADER;
/* Generated by software containing ST-Developer
 * from STEP Tools, Inc. (www.steptools.com) 
 */

FILE_DESCRIPTION(
/* description */ (''),
/* implementation_level */ '2;1');

FILE_NAME(
/* name */ 'W:\\AUTOCAD\\AutoCad - Projects\\Numbered\\16A\\16A-1.stp',

/* time_stamp */ '2019-07-03T14:47:53-04:00',
/* author */ ('rick'),
/* organization */ (''),
/* preprocessor_version */ 'ST-DEVELOPER v15.2',
/* originating_system */ 'Autodesk Inventor 2014',
/* authorisation */ '');

FILE_SCHEMA (('AUTOMOTIVE_DESIGN { 1 0 10303 214 3 1 1 }'));
ENDSEC;

DATA;
#10=MECHANICAL_DESIGN_GEOMETRIC_PRESENTATION_REPRESENTATION('',(#13),#129);
#11=SHAPE_REPRESENTATION_RELATIONSHIP('SRR','None',#141,#12);
#12=ADVANCED_BREP_SHAPE_REPRESENTATION($,(#72),#128);
#13=STYLED_ITEM('',(#150),#72);
#14=CYLINDRICAL_SURFACE('',#78,0.658);
#15=CYLINDRICAL_SURFACE('',#82,0.58);
#16=FACE_BOUND('',#29,.T.);
#17=FACE_BOUND('',#31,.T.);
#18=FACE_BOUND('',#33,.T.);
#19=FACE_BOUND('',#35,.T.);
#20=CONICAL_SURFACE('',#76,0.5955,45.);
#21=FACE_OUTER_BOUND('',#27,.T.);
#22=FACE_OUTER_BOUND('',#28,.T.);
#23=FACE_OUTER_BOUND('',#30,.T.);
#24=FACE_OUTER_BOUND('',#32,.T.);
#25=FACE_OUTER_BOUND('',#34,.T.);
#26=FACE_OUTER_BOUND('',#36,.T.);
#27=EDGE_LOOP('',(#52));
#28=EDGE_LOOP('',(#53));
#29=EDGE_LOOP('',(#54));
#30=EDGE_LOOP('',(#55));
#31=EDGE_LOOP('',(#56));
#32=EDGE_LOOP('',(#57));
#33=EDGE_LOOP('',(#58));
#34=EDGE_LOOP('',(#59));
#35=EDGE_LOOP('',(#60));
#36=EDGE_LOOP('',(#61));
#37=CIRCLE('',#75,0.533);
#38=CIRCLE('',#77,0.658);
#39=CIRCLE('',#79,0.658);
#40=CIRCLE('',#81,0.58);
#41=CIRCLE('',#83,0.58);
#42=VERTEX_POINT('',#111);
#43=VERTEX_POINT('',#114);
#44=VERTEX_POINT('',#117);
#45=VERTEX_POINT('',#120);
#46=VERTEX_POINT('',#123);
#47=EDGE_CURVE('',#42,#42,#37,.T.);
#48=EDGE_CURVE('',#43,#43,#38,.T.);
#49=EDGE_CURVE('',#44,#44,#39,.T.);
#50=EDGE_CURVE('',#45,#45,#40,.T.);
#51=EDGE_CURVE('',#46,#46,#41,.T.);
#52=ORIENTED_EDGE('',*,*,#47,.F.);
#53=ORIENTED_EDGE('',*,*,#47,.T.);
#54=ORIENTED_EDGE('',*,*,#48,.F.);
#55=ORIENTED_EDGE('',*,*,#48,.T.);
#56=ORIENTED_EDGE('',*,*,#49,.F.);
#57=ORIENTED_EDGE('',*,*,#49,.T.);
#58=ORIENTED_EDGE('',*,*,#50,.F.);
#59=ORIENTED_EDGE('',*,*,#50,.T.);
#60=ORIENTED_EDGE('',*,*,#51,.F.);
#61=ORIENTED_EDGE('',*,*,#51,.T.);
#62=PLANE('',#74);
#63=PLANE('',#80);
#64=PLANE('',#84);
#65=ADVANCED_FACE('',(#21),#62,.T.);
#66=ADVANCED_FACE('',(#22,#16),#20,.T.);
#67=ADVANCED_FACE('',(#23,#17),#14,.T.);
#68=ADVANCED_FACE('',(#24,#18),#63,.T.);
#69=ADVANCED_FACE('',(#25,#19),#15,.T.);
#70=ADVANCED_FACE('',(#26),#64,.T.);
#71=CLOSED_SHELL('',(#65,#66,#67,#68,#69,#70));
#72=MANIFOLD_SOLID_BREP('Solid1',#71);
#73=AXIS2_PLACEMENT_3D('placement',#109,#85,#86);
#74=AXIS2_PLACEMENT_3D('',#110,#87,#88);
#75=AXIS2_PLACEMENT_3D('',#112,#89,#90);
#76=AXIS2_PLACEMENT_3D('',#113,#91,#92);
#77=AXIS2_PLACEMENT_3D('',#115,#93,#94);
#78=AXIS2_PLACEMENT_3D('',#116,#95,#96);
#79=AXIS2_PLACEMENT_3D('',#118,#97,#98);
#80=AXIS2_PLACEMENT_3D('',#119,#99,#100);
#81=AXIS2_PLACEMENT_3D('',#121,#101,#102);
#82=AXIS2_PLACEMENT_3D('',#122,#103,#104);
#83=AXIS2_PLACEMENT_3D('',#124,#105,#106);
#84=AXIS2_PLACEMENT_3D('',#125,#107,#108);
#85=DIRECTION('axis',(0.,0.,1.));
#86=DIRECTION('refdir',(1.,0.,0.));
#87=DIRECTION('center_axis',(-1.,0.,0.));
#88=DIRECTION('ref_axis',(0.,0.,1.));
#89=DIRECTION('center_axis',(1.,0.,0.));
#90=DIRECTION('ref_axis',(0.,0.,-1.));
#91=DIRECTION('center_axis',(1.,0.,0.));
#92=DIRECTION('ref_axis',(0.,1.,0.));
#93=DIRECTION('center_axis',(1.,0.,0.));
#94=DIRECTION('ref_axis',(0.,0.,-1.));
#95=DIRECTION('center_axis',(1.,0.,0.));
#96=DIRECTION('ref_axis',(0.,1.,0.));
#97=DIRECTION('center_axis',(1.,0.,0.));
#98=DIRECTION('ref_axis',(0.,0.,-1.));
#99=DIRECTION('center_axis',(1.,0.,0.));
#100=DIRECTION('ref_axis',(0.,0.,-1.));
#101=DIRECTION('center_axis',(1.,0.,0.));
#102=DIRECTION('ref_axis',(0.,0.,-1.));
#103=DIRECTION('center_axis',(1.,0.,0.));
#104=DIRECTION('ref_axis',(0.,1.,0.));
#105=DIRECTION('center_axis',(1.,0.,0.));
#106=DIRECTION('ref_axis',(0.,0.,-1.));
#107=DIRECTION('center_axis',(1.,0.,0.));
#108=DIRECTION('ref_axis',(0.,0.,-1.));
#109=CARTESIAN_POINT('',(0.,0.,0.));
#110=CARTESIAN_POINT('Origin',(0.,0.533,0.));
#111=CARTESIAN_POINT('',(0.,0.533,0.));
#112=CARTESIAN_POINT('Origin',(0.,0.,0.));
#113=CARTESIAN_POINT('Origin',(0.0625,0.,0.));
#114=CARTESIAN_POINT('',(0.125,0.658,0.));
#115=CARTESIAN_POINT('Origin',(0.125,0.,0.));
#116=CARTESIAN_POINT('Origin',(0.21875,0.,0.));
#117=CARTESIAN_POINT('',(0.3125,0.658,0.));
#118=CARTESIAN_POINT('Origin',(0.3125,0.,0.));
#119=CARTESIAN_POINT('Origin',(0.3125,0.58,0.));
#120=CARTESIAN_POINT('',(0.3125,0.58,0.));
#121=CARTESIAN_POINT('Origin',(0.3125,0.,0.));
#122=CARTESIAN_POINT('Origin',(0.39025,0.,0.));
#123=CARTESIAN_POINT('',(0.468,0.58,0.));
#124=CARTESIAN_POINT('Origin',(0.468,0.,0.));
#125=CARTESIAN_POINT('Origin',(0.468,0.,0.));
#126=UNCERTAINTY_MEASURE_WITH_UNIT(LENGTH_MEASURE(0.000393700787401575),
#130,'DISTANCE_ACCURACY_VALUE',
'Maximum model space distance between geometric entities at asserted c
onnectivities');
#127=UNCERTAINTY_MEASURE_WITH_UNIT(LENGTH_MEASURE(1.E-006),#131,
'DISTANCE_ACCURACY_VALUE',
'Maximum model space distance between geometric entities at asserted c
onnectivities');
#128=(
GEOMETRIC_REPRESENTATION_CONTEXT(3)
GLOBAL_UNCERTAINTY_ASSIGNED_CONTEXT((#126))
GLOBAL_UNIT_ASSIGNED_CONTEXT((#130,#136,#133))
REPRESENTATION_CONTEXT('','3D')
);
#129=(
GEOMETRIC_REPRESENTATION_CONTEXT(3)
GLOBAL_UNCERTAINTY_ASSIGNED_CONTEXT((#127))
GLOBAL_UNIT_ASSIGNED_CONTEXT((#131,#136,#133))
REPRESENTATION_CONTEXT('','3D')
);
#130=(
CONVERSION_BASED_UNIT('__CONSTANT UNIT inch',#132)
LENGTH_UNIT()
NAMED_UNIT(#135)
);
#131=(
LENGTH_UNIT()
NAMED_UNIT(*)
SI_UNIT(.MILLI.,.METRE.)
);
#132=LENGTH_MEASURE_WITH_UNIT(LENGTH_MEASURE(25.4),#131);
#133=(
NAMED_UNIT(*)
SI_UNIT($,.STERADIAN.)
SOLID_ANGLE_UNIT()
);
#134=DIMENSIONAL_EXPONENTS(0.,0.,0.,0.,0.,0.,0.);
#135=DIMENSIONAL_EXPONENTS(1.,0.,0.,0.,0.,0.,0.);
#136=(
CONVERSION_BASED_UNIT('degree',#138)
NAMED_UNIT(#134)
PLANE_ANGLE_UNIT()
);
#137=(
NAMED_UNIT(*)
PLANE_ANGLE_UNIT()
SI_UNIT($,.RADIAN.)
);
#138=PLANE_ANGLE_MEASURE_WITH_UNIT(PLANE_ANGLE_MEASURE(0.01745329252),#137);
#139=SHAPE_DEFINITION_REPRESENTATION(#140,#141);
#140=PRODUCT_DEFINITION_SHAPE('',$,#143);
#141=SHAPE_REPRESENTATION('',(#73),#128);
#142=PRODUCT_DEFINITION_CONTEXT('part definition',#147,'design');
#143=PRODUCT_DEFINITION('16A-1','16A-1',#144,#142);
#144=PRODUCT_DEFINITION_FORMATION('',$,#149);
#145=PRODUCT_RELATED_PRODUCT_CATEGORY('16A-1','16A-1',(#149));
#146=APPLICATION_PROTOCOL_DEFINITION('international standard',
'automotive_design',2009,#147);
#147=APPLICATION_CONTEXT(
'Core Data for Automotive Mechanical Design Process');
#148=PRODUCT_CONTEXT('part definition',#147,'mechanical');
#149=PRODUCT('16A-1','16A-1',$,(#148));
#150=PRESENTATION_STYLE_ASSIGNMENT((#151));
#151=SURFACE_STYLE_USAGE(.BOTH.,#152);
#152=SURFACE_SIDE_STYLE($,(#153));
#153=SURFACE_STYLE_FILL_AREA(#154);
#154=FILL_AREA_STYLE($,(#155));
#155=FILL_AREA_STYLE_COLOUR($,#156);
#156=COLOUR_RGB('',0.749019607843137,0.749019607843137,0.749019607843137);
ENDSEC;
END-ISO-10303-21;
