ISO-10303-21;
HEADER;
/* Generated by software containing ST-Developer
 * from STEP Tools, Inc. (www.steptools.com) 
 */

FILE_DESCRIPTION(
/* description */ (''),
/* implementation_level */ '2;1');

FILE_NAME(
/* name */ 
'W:\\AUTOCAD\\AutoCad - Projects\\L\\L14A7\\STP FILES\\L14A7-4.stp',
/* time_stamp */ '2021-05-21T11:04:53-04:00',
/* author */ ('ken'),
/* organization */ (''),
/* preprocessor_version */ 'ST-DEVELOPER v18',
/* originating_system */ 'Autodesk Inventor 2020',
/* authorisation */ '');

FILE_SCHEMA (('AUTOMOTIVE_DESIGN { 1 0 10303 214 3 1 1 }'));
ENDSEC;

DATA;
#10=MECHANICAL_DESIGN_GEOMETRIC_PRESENTATION_REPRESENTATION('',(#13),#520);
#11=SHAPE_REPRESENTATION_RELATIONSHIP('SRR','None',#530,#12);
#12=ADVANCED_BREP_SHAPE_REPRESENTATION('',(#14),#519);
#13=STYLED_ITEM('',(#539),#14);
#14=MANIFOLD_SOLID_BREP('Solid1',#266);
#15=CONICAL_SURFACE('',#323,2.125,0.785398163397448);
#16=FACE_BOUND('',#54,.T.);
#17=FACE_BOUND('',#58,.T.);
#18=FACE_BOUND('',#61,.T.);
#19=FACE_BOUND('',#66,.T.);
#20=PLANE('',#297);
#21=PLANE('',#311);
#22=PLANE('',#318);
#23=PLANE('',#329);
#24=LINE('',#453,#29);
#25=LINE('',#479,#30);
#26=LINE('',#503,#31);
#27=LINE('',#509,#32);
#28=LINE('',#516,#33);
#29=VECTOR('',#355,2.);
#30=VECTOR('',#386,1.917);
#31=VECTOR('',#417,2.125);
#32=VECTOR('',#424,2.25);
#33=VECTOR('',#433,2.129);
#34=CYLINDRICAL_SURFACE('',#293,2.);
#35=CYLINDRICAL_SURFACE('',#307,1.917);
#36=CYLINDRICAL_SURFACE('',#326,2.25);
#37=CYLINDRICAL_SURFACE('',#332,2.129);
#38=FACE_OUTER_BOUND('',#51,.T.);
#39=FACE_OUTER_BOUND('',#52,.T.);
#40=FACE_OUTER_BOUND('',#53,.T.);
#41=FACE_OUTER_BOUND('',#55,.T.);
#42=FACE_OUTER_BOUND('',#56,.T.);
#43=FACE_OUTER_BOUND('',#57,.T.);
#44=FACE_OUTER_BOUND('',#59,.T.);
#45=FACE_OUTER_BOUND('',#60,.T.);
#46=FACE_OUTER_BOUND('',#62,.T.);
#47=FACE_OUTER_BOUND('',#63,.T.);
#48=FACE_OUTER_BOUND('',#64,.T.);
#49=FACE_OUTER_BOUND('',#65,.T.);
#50=FACE_OUTER_BOUND('',#67,.T.);
#51=EDGE_LOOP('',(#171,#172,#173,#174,#175,#176,#177));
#52=EDGE_LOOP('',(#178,#179,#180,#181,#182,#183,#184,#185));
#53=EDGE_LOOP('',(#186,#187));
#54=EDGE_LOOP('',(#188,#189));
#55=EDGE_LOOP('',(#190,#191,#192,#193,#194,#195,#196));
#56=EDGE_LOOP('',(#197,#198,#199,#200,#201,#202,#203,#204));
#57=EDGE_LOOP('',(#205,#206));
#58=EDGE_LOOP('',(#207,#208));
#59=EDGE_LOOP('',(#209,#210,#211,#212,#213,#214,#215));
#60=EDGE_LOOP('',(#216,#217));
#61=EDGE_LOOP('',(#218,#219));
#62=EDGE_LOOP('',(#220,#221,#222,#223,#224,#225,#226));
#63=EDGE_LOOP('',(#227,#228,#229,#230,#231,#232));
#64=EDGE_LOOP('',(#233,#234,#235,#236,#237,#238));
#65=EDGE_LOOP('',(#239,#240));
#66=EDGE_LOOP('',(#241,#242));
#67=EDGE_LOOP('',(#243,#244,#245,#246,#247,#248));
#68=CIRCLE('',#287,2.031);
#69=CIRCLE('',#288,0.031);
#70=CIRCLE('',#289,2.);
#71=CIRCLE('',#290,2.);
#72=CIRCLE('',#291,2.);
#73=CIRCLE('',#292,2.031);
#74=CIRCLE('',#294,2.);
#75=CIRCLE('',#295,2.);
#76=CIRCLE('',#296,2.);
#77=CIRCLE('',#298,2.129);
#78=CIRCLE('',#299,2.129);
#79=CIRCLE('',#301,1.922);
#80=CIRCLE('',#302,0.005);
#81=CIRCLE('',#303,1.917);
#82=CIRCLE('',#304,1.917);
#83=CIRCLE('',#305,1.917);
#84=CIRCLE('',#306,1.922);
#85=CIRCLE('',#308,1.917);
#86=CIRCLE('',#309,1.917);
#87=CIRCLE('',#310,1.917);
#88=CIRCLE('',#312,2.);
#89=CIRCLE('',#313,2.);
#90=CIRCLE('',#315,0.005);
#91=CIRCLE('',#316,1.922);
#92=CIRCLE('',#317,1.922);
#93=CIRCLE('',#319,1.995);
#94=CIRCLE('',#320,1.995);
#95=CIRCLE('',#322,0.005);
#96=CIRCLE('',#324,2.25);
#97=CIRCLE('',#325,2.25);
#98=CIRCLE('',#327,2.25);
#99=CIRCLE('',#328,2.25);
#100=CIRCLE('',#330,2.129);
#101=CIRCLE('',#331,2.129);
#102=VERTEX_POINT('',#436);
#103=VERTEX_POINT('',#437);
#104=VERTEX_POINT('',#439);
#105=VERTEX_POINT('',#441);
#106=VERTEX_POINT('',#443);
#107=VERTEX_POINT('',#448);
#108=VERTEX_POINT('',#449);
#109=VERTEX_POINT('',#451);
#110=VERTEX_POINT('',#456);
#111=VERTEX_POINT('',#457);
#112=VERTEX_POINT('',#461);
#113=VERTEX_POINT('',#462);
#114=VERTEX_POINT('',#464);
#115=VERTEX_POINT('',#466);
#116=VERTEX_POINT('',#468);
#117=VERTEX_POINT('',#473);
#118=VERTEX_POINT('',#474);
#119=VERTEX_POINT('',#476);
#120=VERTEX_POINT('',#481);
#121=VERTEX_POINT('',#482);
#122=VERTEX_POINT('',#486);
#123=VERTEX_POINT('',#488);
#124=VERTEX_POINT('',#492);
#125=VERTEX_POINT('',#493);
#126=VERTEX_POINT('',#499);
#127=VERTEX_POINT('',#500);
#128=VERTEX_POINT('',#505);
#129=VERTEX_POINT('',#506);
#130=VERTEX_POINT('',#511);
#131=VERTEX_POINT('',#512);
#132=EDGE_CURVE('',#102,#103,#68,.T.);
#133=EDGE_CURVE('',#103,#104,#69,.T.);
#134=EDGE_CURVE('',#104,#105,#70,.T.);
#135=EDGE_CURVE('',#105,#106,#71,.T.);
#136=EDGE_CURVE('',#106,#104,#72,.T.);
#137=EDGE_CURVE('',#103,#102,#73,.T.);
#138=EDGE_CURVE('',#107,#108,#74,.T.);
#139=EDGE_CURVE('',#109,#107,#75,.T.);
#140=EDGE_CURVE('',#109,#106,#24,.T.);
#141=EDGE_CURVE('',#108,#109,#76,.T.);
#142=EDGE_CURVE('',#110,#111,#77,.T.);
#143=EDGE_CURVE('',#111,#110,#78,.T.);
#144=EDGE_CURVE('',#112,#113,#79,.T.);
#145=EDGE_CURVE('',#113,#114,#80,.T.);
#146=EDGE_CURVE('',#114,#115,#81,.T.);
#147=EDGE_CURVE('',#115,#116,#82,.T.);
#148=EDGE_CURVE('',#116,#114,#83,.T.);
#149=EDGE_CURVE('',#113,#112,#84,.T.);
#150=EDGE_CURVE('',#117,#118,#85,.T.);
#151=EDGE_CURVE('',#119,#117,#86,.T.);
#152=EDGE_CURVE('',#118,#119,#87,.T.);
#153=EDGE_CURVE('',#118,#115,#25,.T.);
#154=EDGE_CURVE('',#120,#121,#88,.T.);
#155=EDGE_CURVE('',#121,#120,#89,.T.);
#156=EDGE_CURVE('',#119,#122,#90,.T.);
#157=EDGE_CURVE('',#122,#123,#91,.T.);
#158=EDGE_CURVE('',#123,#122,#92,.T.);
#159=EDGE_CURVE('',#124,#125,#93,.T.);
#160=EDGE_CURVE('',#125,#124,#94,.T.);
#161=EDGE_CURVE('',#125,#108,#95,.T.);
#162=EDGE_CURVE('',#126,#127,#96,.T.);
#163=EDGE_CURVE('',#127,#126,#97,.T.);
#164=EDGE_CURVE('',#127,#121,#26,.T.);
#165=EDGE_CURVE('',#128,#129,#98,.T.);
#166=EDGE_CURVE('',#129,#128,#99,.T.);
#167=EDGE_CURVE('',#129,#127,#27,.T.);
#168=EDGE_CURVE('',#130,#131,#100,.T.);
#169=EDGE_CURVE('',#131,#130,#101,.T.);
#170=EDGE_CURVE('',#111,#131,#28,.T.);
#171=ORIENTED_EDGE('',*,*,#132,.T.);
#172=ORIENTED_EDGE('',*,*,#133,.T.);
#173=ORIENTED_EDGE('',*,*,#134,.T.);
#174=ORIENTED_EDGE('',*,*,#135,.T.);
#175=ORIENTED_EDGE('',*,*,#136,.T.);
#176=ORIENTED_EDGE('',*,*,#133,.F.);
#177=ORIENTED_EDGE('',*,*,#137,.T.);
#178=ORIENTED_EDGE('',*,*,#138,.F.);
#179=ORIENTED_EDGE('',*,*,#139,.F.);
#180=ORIENTED_EDGE('',*,*,#140,.T.);
#181=ORIENTED_EDGE('',*,*,#135,.F.);
#182=ORIENTED_EDGE('',*,*,#134,.F.);
#183=ORIENTED_EDGE('',*,*,#136,.F.);
#184=ORIENTED_EDGE('',*,*,#140,.F.);
#185=ORIENTED_EDGE('',*,*,#141,.F.);
#186=ORIENTED_EDGE('',*,*,#142,.T.);
#187=ORIENTED_EDGE('',*,*,#143,.T.);
#188=ORIENTED_EDGE('',*,*,#132,.F.);
#189=ORIENTED_EDGE('',*,*,#137,.F.);
#190=ORIENTED_EDGE('',*,*,#144,.T.);
#191=ORIENTED_EDGE('',*,*,#145,.T.);
#192=ORIENTED_EDGE('',*,*,#146,.T.);
#193=ORIENTED_EDGE('',*,*,#147,.T.);
#194=ORIENTED_EDGE('',*,*,#148,.T.);
#195=ORIENTED_EDGE('',*,*,#145,.F.);
#196=ORIENTED_EDGE('',*,*,#149,.T.);
#197=ORIENTED_EDGE('',*,*,#150,.F.);
#198=ORIENTED_EDGE('',*,*,#151,.F.);
#199=ORIENTED_EDGE('',*,*,#152,.F.);
#200=ORIENTED_EDGE('',*,*,#153,.T.);
#201=ORIENTED_EDGE('',*,*,#146,.F.);
#202=ORIENTED_EDGE('',*,*,#148,.F.);
#203=ORIENTED_EDGE('',*,*,#147,.F.);
#204=ORIENTED_EDGE('',*,*,#153,.F.);
#205=ORIENTED_EDGE('',*,*,#154,.F.);
#206=ORIENTED_EDGE('',*,*,#155,.F.);
#207=ORIENTED_EDGE('',*,*,#144,.F.);
#208=ORIENTED_EDGE('',*,*,#149,.F.);
#209=ORIENTED_EDGE('',*,*,#150,.T.);
#210=ORIENTED_EDGE('',*,*,#152,.T.);
#211=ORIENTED_EDGE('',*,*,#156,.T.);
#212=ORIENTED_EDGE('',*,*,#157,.T.);
#213=ORIENTED_EDGE('',*,*,#158,.T.);
#214=ORIENTED_EDGE('',*,*,#156,.F.);
#215=ORIENTED_EDGE('',*,*,#151,.T.);
#216=ORIENTED_EDGE('',*,*,#159,.F.);
#217=ORIENTED_EDGE('',*,*,#160,.F.);
#218=ORIENTED_EDGE('',*,*,#158,.F.);
#219=ORIENTED_EDGE('',*,*,#157,.F.);
#220=ORIENTED_EDGE('',*,*,#159,.T.);
#221=ORIENTED_EDGE('',*,*,#161,.T.);
#222=ORIENTED_EDGE('',*,*,#141,.T.);
#223=ORIENTED_EDGE('',*,*,#139,.T.);
#224=ORIENTED_EDGE('',*,*,#138,.T.);
#225=ORIENTED_EDGE('',*,*,#161,.F.);
#226=ORIENTED_EDGE('',*,*,#160,.T.);
#227=ORIENTED_EDGE('',*,*,#162,.F.);
#228=ORIENTED_EDGE('',*,*,#163,.F.);
#229=ORIENTED_EDGE('',*,*,#164,.T.);
#230=ORIENTED_EDGE('',*,*,#155,.T.);
#231=ORIENTED_EDGE('',*,*,#154,.T.);
#232=ORIENTED_EDGE('',*,*,#164,.F.);
#233=ORIENTED_EDGE('',*,*,#165,.F.);
#234=ORIENTED_EDGE('',*,*,#166,.F.);
#235=ORIENTED_EDGE('',*,*,#167,.T.);
#236=ORIENTED_EDGE('',*,*,#163,.T.);
#237=ORIENTED_EDGE('',*,*,#162,.T.);
#238=ORIENTED_EDGE('',*,*,#167,.F.);
#239=ORIENTED_EDGE('',*,*,#165,.T.);
#240=ORIENTED_EDGE('',*,*,#166,.T.);
#241=ORIENTED_EDGE('',*,*,#168,.F.);
#242=ORIENTED_EDGE('',*,*,#169,.F.);
#243=ORIENTED_EDGE('',*,*,#142,.F.);
#244=ORIENTED_EDGE('',*,*,#143,.F.);
#245=ORIENTED_EDGE('',*,*,#170,.T.);
#246=ORIENTED_EDGE('',*,*,#169,.T.);
#247=ORIENTED_EDGE('',*,*,#168,.T.);
#248=ORIENTED_EDGE('',*,*,#170,.F.);
#249=TOROIDAL_SURFACE('',#286,2.031,0.031);
#250=TOROIDAL_SURFACE('',#300,1.922,0.005);
#251=TOROIDAL_SURFACE('',#314,1.922,0.005);
#252=TOROIDAL_SURFACE('',#321,1.995,0.005);
#253=ADVANCED_FACE('',(#38),#249,.F.);
#254=ADVANCED_FACE('',(#39),#34,.T.);
#255=ADVANCED_FACE('',(#40,#16),#20,.T.);
#256=ADVANCED_FACE('',(#41),#250,.T.);
#257=ADVANCED_FACE('',(#42),#35,.F.);
#258=ADVANCED_FACE('',(#43,#17),#21,.T.);
#259=ADVANCED_FACE('',(#44),#251,.T.);
#260=ADVANCED_FACE('',(#45,#18),#22,.T.);
#261=ADVANCED_FACE('',(#46),#252,.T.);
#262=ADVANCED_FACE('',(#47),#15,.T.);
#263=ADVANCED_FACE('',(#48),#36,.T.);
#264=ADVANCED_FACE('',(#49,#19),#23,.T.);
#265=ADVANCED_FACE('',(#50),#37,.T.);
#266=CLOSED_SHELL('',(#253,#254,#255,#256,#257,#258,#259,#260,#261,#262,
#263,#264,#265));
#267=DERIVED_UNIT_ELEMENT(#269,1.);
#268=DERIVED_UNIT_ELEMENT(#524,3.);
#269=(
MASS_UNIT()
NAMED_UNIT(*)
SI_UNIT($,.GRAM.)
);
#270=DERIVED_UNIT((#267,#268));
#271=MEASURE_REPRESENTATION_ITEM('density measure',
POSITIVE_RATIO_MEASURE(1.),#270);
#272=PROPERTY_DEFINITION_REPRESENTATION(#277,#274);
#273=PROPERTY_DEFINITION_REPRESENTATION(#278,#275);
#274=REPRESENTATION('material name',(#276),#519);
#275=REPRESENTATION('density',(#271),#519);
#276=DESCRIPTIVE_REPRESENTATION_ITEM('Generic','Generic');
#277=PROPERTY_DEFINITION('material property','material name',#532);
#278=PROPERTY_DEFINITION('material property','density of part',#532);
#279=DATE_TIME_ROLE('creation_date');
#280=APPLIED_DATE_AND_TIME_ASSIGNMENT(#281,#279,(#532));
#281=DATE_AND_TIME(#282,#283);
#282=CALENDAR_DATE(2007,9,8);
#283=LOCAL_TIME(13,7,50.,#284);
#284=COORDINATED_UNIVERSAL_TIME_OFFSET(0,0,.BEHIND.);
#285=AXIS2_PLACEMENT_3D('placement',#434,#333,#334);
#286=AXIS2_PLACEMENT_3D('',#435,#335,#336);
#287=AXIS2_PLACEMENT_3D('',#438,#337,#338);
#288=AXIS2_PLACEMENT_3D('',#440,#339,#340);
#289=AXIS2_PLACEMENT_3D('',#442,#341,#342);
#290=AXIS2_PLACEMENT_3D('',#444,#343,#344);
#291=AXIS2_PLACEMENT_3D('',#445,#345,#346);
#292=AXIS2_PLACEMENT_3D('',#446,#347,#348);
#293=AXIS2_PLACEMENT_3D('',#447,#349,#350);
#294=AXIS2_PLACEMENT_3D('',#450,#351,#352);
#295=AXIS2_PLACEMENT_3D('',#452,#353,#354);
#296=AXIS2_PLACEMENT_3D('',#454,#356,#357);
#297=AXIS2_PLACEMENT_3D('',#455,#358,#359);
#298=AXIS2_PLACEMENT_3D('',#458,#360,#361);
#299=AXIS2_PLACEMENT_3D('',#459,#362,#363);
#300=AXIS2_PLACEMENT_3D('',#460,#364,#365);
#301=AXIS2_PLACEMENT_3D('',#463,#366,#367);
#302=AXIS2_PLACEMENT_3D('',#465,#368,#369);
#303=AXIS2_PLACEMENT_3D('',#467,#370,#371);
#304=AXIS2_PLACEMENT_3D('',#469,#372,#373);
#305=AXIS2_PLACEMENT_3D('',#470,#374,#375);
#306=AXIS2_PLACEMENT_3D('',#471,#376,#377);
#307=AXIS2_PLACEMENT_3D('',#472,#378,#379);
#308=AXIS2_PLACEMENT_3D('',#475,#380,#381);
#309=AXIS2_PLACEMENT_3D('',#477,#382,#383);
#310=AXIS2_PLACEMENT_3D('',#478,#384,#385);
#311=AXIS2_PLACEMENT_3D('',#480,#387,#388);
#312=AXIS2_PLACEMENT_3D('',#483,#389,#390);
#313=AXIS2_PLACEMENT_3D('',#484,#391,#392);
#314=AXIS2_PLACEMENT_3D('',#485,#393,#394);
#315=AXIS2_PLACEMENT_3D('',#487,#395,#396);
#316=AXIS2_PLACEMENT_3D('',#489,#397,#398);
#317=AXIS2_PLACEMENT_3D('',#490,#399,#400);
#318=AXIS2_PLACEMENT_3D('',#491,#401,#402);
#319=AXIS2_PLACEMENT_3D('',#494,#403,#404);
#320=AXIS2_PLACEMENT_3D('',#495,#405,#406);
#321=AXIS2_PLACEMENT_3D('',#496,#407,#408);
#322=AXIS2_PLACEMENT_3D('',#497,#409,#410);
#323=AXIS2_PLACEMENT_3D('',#498,#411,#412);
#324=AXIS2_PLACEMENT_3D('',#501,#413,#414);
#325=AXIS2_PLACEMENT_3D('',#502,#415,#416);
#326=AXIS2_PLACEMENT_3D('',#504,#418,#419);
#327=AXIS2_PLACEMENT_3D('',#507,#420,#421);
#328=AXIS2_PLACEMENT_3D('',#508,#422,#423);
#329=AXIS2_PLACEMENT_3D('',#510,#425,#426);
#330=AXIS2_PLACEMENT_3D('',#513,#427,#428);
#331=AXIS2_PLACEMENT_3D('',#514,#429,#430);
#332=AXIS2_PLACEMENT_3D('',#515,#431,#432);
#333=DIRECTION('axis',(0.,0.,1.));
#334=DIRECTION('refdir',(1.,0.,0.));
#335=DIRECTION('center_axis',(1.,0.,0.));
#336=DIRECTION('ref_axis',(0.,0.,-1.));
#337=DIRECTION('center_axis',(1.,0.,0.));
#338=DIRECTION('ref_axis',(0.,-1.,1.22460635382238E-16));
#339=DIRECTION('center_axis',(0.,-1.,-1.22464679914735E-16));
#340=DIRECTION('ref_axis',(0.,-1.22464679914735E-16,1.));
#341=DIRECTION('center_axis',(-1.,0.,0.));
#342=DIRECTION('ref_axis',(0.,-1.,1.22460635382238E-16));
#343=DIRECTION('center_axis',(-1.,0.,0.));
#344=DIRECTION('ref_axis',(0.,-1.,1.22460635382238E-16));
#345=DIRECTION('center_axis',(-1.,0.,0.));
#346=DIRECTION('ref_axis',(0.,-1.,1.22460635382238E-16));
#347=DIRECTION('center_axis',(1.,0.,0.));
#348=DIRECTION('ref_axis',(0.,-1.,1.22460635382238E-16));
#349=DIRECTION('center_axis',(1.,0.,0.));
#350=DIRECTION('ref_axis',(0.,1.,0.));
#351=DIRECTION('center_axis',(1.,0.,0.));
#352=DIRECTION('ref_axis',(0.,-1.,1.22460635382238E-16));
#353=DIRECTION('center_axis',(1.,0.,0.));
#354=DIRECTION('ref_axis',(0.,-1.,1.22460635382238E-16));
#355=DIRECTION('',(-1.,0.,0.));
#356=DIRECTION('center_axis',(1.,0.,0.));
#357=DIRECTION('ref_axis',(0.,-1.,1.22460635382238E-16));
#358=DIRECTION('center_axis',(1.,0.,0.));
#359=DIRECTION('ref_axis',(0.,0.,-1.));
#360=DIRECTION('center_axis',(1.,0.,0.));
#361=DIRECTION('ref_axis',(0.,1.,0.));
#362=DIRECTION('center_axis',(1.,0.,0.));
#363=DIRECTION('ref_axis',(0.,1.,0.));
#364=DIRECTION('center_axis',(1.,0.,0.));
#365=DIRECTION('ref_axis',(0.,0.,-1.));
#366=DIRECTION('center_axis',(-1.,0.,0.));
#367=DIRECTION('ref_axis',(0.,-1.,1.22460635382238E-16));
#368=DIRECTION('center_axis',(0.,-1.,-1.22464679914735E-16));
#369=DIRECTION('ref_axis',(0.,-1.22464679914735E-16,1.));
#370=DIRECTION('center_axis',(1.,0.,0.));
#371=DIRECTION('ref_axis',(0.,-1.,1.22460635382238E-16));
#372=DIRECTION('center_axis',(1.,0.,0.));
#373=DIRECTION('ref_axis',(0.,-1.,1.22460635382238E-16));
#374=DIRECTION('center_axis',(1.,0.,0.));
#375=DIRECTION('ref_axis',(0.,-1.,1.22460635382238E-16));
#376=DIRECTION('center_axis',(-1.,0.,0.));
#377=DIRECTION('ref_axis',(0.,-1.,1.22460635382238E-16));
#378=DIRECTION('center_axis',(1.,0.,0.));
#379=DIRECTION('ref_axis',(0.,1.,0.));
#380=DIRECTION('center_axis',(-1.,0.,0.));
#381=DIRECTION('ref_axis',(0.,-1.,1.22460635382238E-16));
#382=DIRECTION('center_axis',(-1.,0.,0.));
#383=DIRECTION('ref_axis',(0.,-1.,1.22460635382238E-16));
#384=DIRECTION('center_axis',(-1.,0.,0.));
#385=DIRECTION('ref_axis',(0.,-1.,1.22460635382238E-16));
#386=DIRECTION('',(-1.,0.,0.));
#387=DIRECTION('center_axis',(-1.,0.,0.));
#388=DIRECTION('ref_axis',(0.,0.,1.));
#389=DIRECTION('center_axis',(1.,0.,0.));
#390=DIRECTION('ref_axis',(0.,1.,0.));
#391=DIRECTION('center_axis',(1.,0.,0.));
#392=DIRECTION('ref_axis',(0.,1.,0.));
#393=DIRECTION('center_axis',(1.,0.,0.));
#394=DIRECTION('ref_axis',(0.,0.,-1.));
#395=DIRECTION('center_axis',(0.,-1.,-1.22464679914735E-16));
#396=DIRECTION('ref_axis',(0.,-1.22464679914735E-16,1.));
#397=DIRECTION('center_axis',(1.,0.,0.));
#398=DIRECTION('ref_axis',(0.,-1.,1.22460635382238E-16));
#399=DIRECTION('center_axis',(1.,0.,0.));
#400=DIRECTION('ref_axis',(0.,-1.,1.22460635382238E-16));
#401=DIRECTION('center_axis',(1.,0.,0.));
#402=DIRECTION('ref_axis',(0.,0.,-1.));
#403=DIRECTION('center_axis',(-1.,0.,0.));
#404=DIRECTION('ref_axis',(0.,-1.,1.22460635382238E-16));
#405=DIRECTION('center_axis',(-1.,0.,0.));
#406=DIRECTION('ref_axis',(0.,-1.,1.22460635382238E-16));
#407=DIRECTION('center_axis',(1.,0.,0.));
#408=DIRECTION('ref_axis',(0.,0.,-1.));
#409=DIRECTION('center_axis',(0.,-1.,-1.22464679914735E-16));
#410=DIRECTION('ref_axis',(0.,-1.22464679914735E-16,1.));
#411=DIRECTION('center_axis',(1.,0.,0.));
#412=DIRECTION('ref_axis',(0.,1.,0.));
#413=DIRECTION('center_axis',(1.,0.,0.));
#414=DIRECTION('ref_axis',(0.,1.,0.));
#415=DIRECTION('center_axis',(1.,0.,0.));
#416=DIRECTION('ref_axis',(0.,1.,0.));
#417=DIRECTION('',(-0.707106781186547,0.707106781186547,8.65956056235493E-17));
#418=DIRECTION('center_axis',(1.,0.,0.));
#419=DIRECTION('ref_axis',(0.,1.,0.));
#420=DIRECTION('center_axis',(1.,0.,0.));
#421=DIRECTION('ref_axis',(0.,1.,0.));
#422=DIRECTION('center_axis',(1.,0.,0.));
#423=DIRECTION('ref_axis',(0.,1.,0.));
#424=DIRECTION('',(-1.,0.,0.));
#425=DIRECTION('center_axis',(1.,0.,0.));
#426=DIRECTION('ref_axis',(0.,0.,-1.));
#427=DIRECTION('center_axis',(1.,0.,0.));
#428=DIRECTION('ref_axis',(0.,1.,0.));
#429=DIRECTION('center_axis',(1.,0.,0.));
#430=DIRECTION('ref_axis',(0.,1.,0.));
#431=DIRECTION('center_axis',(1.,0.,0.));
#432=DIRECTION('ref_axis',(0.,1.,0.));
#433=DIRECTION('',(-1.,0.,0.));
#434=CARTESIAN_POINT('',(0.,0.,0.));
#435=CARTESIAN_POINT('Origin',(0.842999999999999,0.,0.));
#436=CARTESIAN_POINT('',(0.811999999999999,2.031,0.));
#437=CARTESIAN_POINT('',(0.811999999999999,-2.48725764906827E-16,2.031));
#438=CARTESIAN_POINT('Origin',(0.811999999999999,0.,0.));
#439=CARTESIAN_POINT('',(0.842999999999999,-2.44929359829471E-16,2.));
#440=CARTESIAN_POINT('Origin',(0.842999999999999,-2.48725764906827E-16,
2.031));
#441=CARTESIAN_POINT('',(0.842999999999999,2.,-4.89842541528951E-16));
#442=CARTESIAN_POINT('Origin',(0.842999999999999,0.,0.));
#443=CARTESIAN_POINT('',(0.842999999999999,-2.,-2.44929359829471E-16));
#444=CARTESIAN_POINT('Origin',(0.842999999999999,0.,0.));
#445=CARTESIAN_POINT('Origin',(0.842999999999999,0.,0.));
#446=CARTESIAN_POINT('Origin',(0.811999999999999,0.,0.));
#447=CARTESIAN_POINT('Origin',(1.281,0.,0.));
#448=CARTESIAN_POINT('',(1.745,2.,0.));
#449=CARTESIAN_POINT('',(1.745,-2.44929359829471E-16,2.));
#450=CARTESIAN_POINT('Origin',(1.745,0.,0.));
#451=CARTESIAN_POINT('',(1.745,-2.,-2.44929359829471E-16));
#452=CARTESIAN_POINT('Origin',(1.745,0.,0.));
#453=CARTESIAN_POINT('',(1.281,-2.,-2.44929359829471E-16));
#454=CARTESIAN_POINT('Origin',(1.745,0.,0.));
#455=CARTESIAN_POINT('Origin',(0.811999999999999,2.0645,0.));
#456=CARTESIAN_POINT('',(0.811999999999999,2.129,0.));
#457=CARTESIAN_POINT('',(0.811999999999999,-2.129,-2.60727303538471E-16));
#458=CARTESIAN_POINT('Origin',(0.811999999999999,0.,0.));
#459=CARTESIAN_POINT('Origin',(0.811999999999999,0.,0.));
#460=CARTESIAN_POINT('Origin',(0.00499999999999971,0.,0.));
#461=CARTESIAN_POINT('',(-3.59238011166851E-16,1.922,-4.70738682409322E-16));
#462=CARTESIAN_POINT('',(-3.59238011166851E-16,-2.35377114796121E-16,1.922));
#463=CARTESIAN_POINT('Origin',(-3.59238011166851E-16,0.,0.));
#464=CARTESIAN_POINT('',(0.00499999999999971,-2.34764791396548E-16,1.917));
#465=CARTESIAN_POINT('Origin',(0.00499999999999971,-2.35377114796121E-16,
1.922));
#466=CARTESIAN_POINT('',(0.00499999999999971,-1.917,-2.34764791396548E-16));
#467=CARTESIAN_POINT('Origin',(0.00499999999999971,0.,0.));
#468=CARTESIAN_POINT('',(0.00499999999999971,1.917,0.));
#469=CARTESIAN_POINT('Origin',(0.00499999999999971,0.,0.));
#470=CARTESIAN_POINT('Origin',(0.00499999999999971,0.,0.));
#471=CARTESIAN_POINT('Origin',(-3.59238011166851E-16,0.,0.));
#472=CARTESIAN_POINT('Origin',(0.875,0.,0.));
#473=CARTESIAN_POINT('',(1.745,1.917,-4.69514076055499E-16));
#474=CARTESIAN_POINT('',(1.745,-1.917,-2.34764791396548E-16));
#475=CARTESIAN_POINT('Origin',(1.745,0.,0.));
#476=CARTESIAN_POINT('',(1.745,-2.34764791396548E-16,1.917));
#477=CARTESIAN_POINT('Origin',(1.745,0.,0.));
#478=CARTESIAN_POINT('Origin',(1.745,0.,0.));
#479=CARTESIAN_POINT('',(0.875,-1.917,-2.34764791396548E-16));
#480=CARTESIAN_POINT('Origin',(-3.59238011166851E-16,1.9585,0.));
#481=CARTESIAN_POINT('',(-3.68799479144675E-16,2.,0.));
#482=CARTESIAN_POINT('',(-3.93386111087654E-16,-2.,-2.44929359829471E-16));
#483=CARTESIAN_POINT('Origin',(-3.68799479144675E-16,0.,0.));
#484=CARTESIAN_POINT('Origin',(-3.68799479144675E-16,0.,0.));
#485=CARTESIAN_POINT('Origin',(1.745,0.,0.));
#486=CARTESIAN_POINT('',(1.75,-2.35377114796121E-16,1.922));
#487=CARTESIAN_POINT('Origin',(1.745,-2.35377114796121E-16,1.922));
#488=CARTESIAN_POINT('',(1.75,1.922,0.));
#489=CARTESIAN_POINT('Origin',(1.75,0.,0.));
#490=CARTESIAN_POINT('Origin',(1.75,0.,0.));
#491=CARTESIAN_POINT('Origin',(1.75,1.9585,0.));
#492=CARTESIAN_POINT('',(1.75,1.995,-4.88617935175129E-16));
#493=CARTESIAN_POINT('',(1.75,-2.44317036429897E-16,1.995));
#494=CARTESIAN_POINT('Origin',(1.75,0.,0.));
#495=CARTESIAN_POINT('Origin',(1.75,0.,0.));
#496=CARTESIAN_POINT('Origin',(1.745,0.,0.));
#497=CARTESIAN_POINT('Origin',(1.745,-2.44317036429897E-16,1.995));
#498=CARTESIAN_POINT('Origin',(0.125,0.,0.));
#499=CARTESIAN_POINT('',(0.25,2.25,0.));
#500=CARTESIAN_POINT('',(0.25,-2.25,-2.75545529808154E-16));
#501=CARTESIAN_POINT('Origin',(0.25,0.,0.));
#502=CARTESIAN_POINT('Origin',(0.25,0.,0.));
#503=CARTESIAN_POINT('',(0.125,-2.125,-2.60237444818813E-16));
#504=CARTESIAN_POINT('Origin',(0.406,0.,0.));
#505=CARTESIAN_POINT('',(0.561999999999999,2.25,0.));
#506=CARTESIAN_POINT('',(0.561999999999999,-2.25,-2.75545529808154E-16));
#507=CARTESIAN_POINT('Origin',(0.561999999999999,0.,0.));
#508=CARTESIAN_POINT('Origin',(0.561999999999999,0.,0.));
#509=CARTESIAN_POINT('',(0.406,-2.25,-2.75545529808154E-16));
#510=CARTESIAN_POINT('Origin',(0.561999999999999,2.1895,0.));
#511=CARTESIAN_POINT('',(0.561999999999999,2.129,0.));
#512=CARTESIAN_POINT('',(0.561999999999999,-2.129,-2.60727303538471E-16));
#513=CARTESIAN_POINT('Origin',(0.561999999999999,0.,0.));
#514=CARTESIAN_POINT('Origin',(0.561999999999999,0.,0.));
#515=CARTESIAN_POINT('Origin',(0.686999999999999,0.,0.));
#516=CARTESIAN_POINT('',(0.686999999999999,-2.129,-2.60727303538471E-16));
#517=UNCERTAINTY_MEASURE_WITH_UNIT(LENGTH_MEASURE(0.000393700787401575),
#522,'DISTANCE_ACCURACY_VALUE',
'Maximum model space distance between geometric entities at asserted c
onnectivities');
#518=UNCERTAINTY_MEASURE_WITH_UNIT(LENGTH_MEASURE(0.000393700787401575),
#522,'DISTANCE_ACCURACY_VALUE',
'Maximum model space distance between geometric entities at asserted c
onnectivities');
#519=(
GEOMETRIC_REPRESENTATION_CONTEXT(3)
GLOBAL_UNCERTAINTY_ASSIGNED_CONTEXT((#517))
GLOBAL_UNIT_ASSIGNED_CONTEXT((#522,#526,#527))
REPRESENTATION_CONTEXT('','3D')
);
#520=(
GEOMETRIC_REPRESENTATION_CONTEXT(3)
GLOBAL_UNCERTAINTY_ASSIGNED_CONTEXT((#518))
GLOBAL_UNIT_ASSIGNED_CONTEXT((#522,#526,#527))
REPRESENTATION_CONTEXT('','3D')
);
#521=DIMENSIONAL_EXPONENTS(1.,0.,0.,0.,0.,0.,0.);
#522=(
CONVERSION_BASED_UNIT('inch',#525)
LENGTH_UNIT()
NAMED_UNIT(#521)
);
#523=(
LENGTH_UNIT()
NAMED_UNIT(*)
SI_UNIT(.MILLI.,.METRE.)
);
#524=(
LENGTH_UNIT()
NAMED_UNIT(*)
SI_UNIT(.CENTI.,.METRE.)
);
#525=LENGTH_MEASURE_WITH_UNIT(LENGTH_MEASURE(25.4),#523);
#526=(
NAMED_UNIT(*)
PLANE_ANGLE_UNIT()
SI_UNIT($,.RADIAN.)
);
#527=(
NAMED_UNIT(*)
SI_UNIT($,.STERADIAN.)
SOLID_ANGLE_UNIT()
);
#528=SHAPE_DEFINITION_REPRESENTATION(#529,#530);
#529=PRODUCT_DEFINITION_SHAPE('',$,#532);
#530=SHAPE_REPRESENTATION('',(#285),#519);
#531=PRODUCT_DEFINITION_CONTEXT('part definition',#536,'design');
#532=PRODUCT_DEFINITION('L14A7-4','L14A7-4',#533,#531);
#533=PRODUCT_DEFINITION_FORMATION('',$,#538);
#534=PRODUCT_RELATED_PRODUCT_CATEGORY('L14A7-4','L14A7-4',(#538));
#535=APPLICATION_PROTOCOL_DEFINITION('international standard',
'automotive_design',2009,#536);
#536=APPLICATION_CONTEXT(
'Core Data for Automotive Mechanical Design Process');
#537=PRODUCT_CONTEXT('part definition',#536,'mechanical');
#538=PRODUCT('L14A7-4','L14A7-4',$,(#537));
#539=PRESENTATION_STYLE_ASSIGNMENT((#540));
#540=SURFACE_STYLE_USAGE(.BOTH.,#543);
#541=SURFACE_STYLE_RENDERING_WITH_PROPERTIES($,#547,(#542));
#542=SURFACE_STYLE_TRANSPARENT(0.);
#543=SURFACE_SIDE_STYLE('',(#544,#541));
#544=SURFACE_STYLE_FILL_AREA(#545);
#545=FILL_AREA_STYLE('',(#546));
#546=FILL_AREA_STYLE_COLOUR('',#547);
#547=COLOUR_RGB('',0.749019607843137,0.749019607843137,0.749019607843137);
ENDSEC;
END-ISO-10303-21;
